Bu Akşam Gitar Tabları - Duman

#1
Sponsorlu Bağlantılar
Bu Akşam Gitar Tabları - Duman-Duman Bu Akşam gitar akorları


e|----2-0---0-----0-----2-0---0-----00-|
B|--0-----3---2-3---2-0-----3---2-3----|

e|----2-0---0-----0--------------------|
B|--0-----3---2-3---2-0---3-2-0-3-2-00-|

Solo:

e|----2-0---0-----0-----2-0---0-----00-|
B|--0-----3---2-3---2-0-----3---2-3----|

e|----2-0---0-----0--------------------|
B|--0-----3---2-3---2-0---3-2-0-3-2-00-|

e|---54545454545h7-5454545--10-9-7-----|
B|-0-----------------------------------|

e|---54545454545p4-2---2-0---0---------|
B|-0-----------------------3---2-0-0---|




akormerkezi