Coldplay - Yellow (tab) -Gitar Akorları

KaRDeLeN

Özel Üye
#1
Sponsorlu Bağlantılar
Coldplay - Yellow (tab) -Gitar Akorları

Intro: B7 B11 F# F#11 E E6 B7 Bsus B7
B7 B11 F#7 F#11
E||--0---------0--------|--0---------0--------|
B||--0---------0--------|--0---------0--------|
G||--8---------8--------|--3---------3--------|
D||--9---------11-------|--4---------6--------|
A||--9---------9--------|--4---------4--------|
E||--7---------7--------|--2---------2--------|


E E6 B7 Bsus B

E||---0---------0--------|--0---------0--------0----|
B||---0---------2--------|--0---------0--------0----|
G||---1---------1--------|--8---------9--------8----|
D||---2---------2--------|--9---------9--------9----|
A||---2---------2--------|--9---------9--------9----|
E||---0---------0--------|--7---------7--------7----|

Verse

B7 F#77 E
E||--0------|---0--------|--0--------|
B||--0------|---0--------|--0--------|
G||--8------|---3--------|--1--------|
D||--9------|---4--------|--2--------|
A||--9------|---4--------|--2--------|
E||--7------|---2--------|--0--------|


Pre-chorus:

B7 Bsus B7
E||--0---------0---------0-----|
B||--0---------0---------0-----|
G||--8---------9---------8-----|
D||--9---------9---------9-----|
A||--9---------9---------9-----|
E||--7---------7---------7-----|


Chorus
E7M(?) G#m7 F#6 E
E||-----4--------|--4------2----| |--0--------|
B||-----4--------|--4------4----| |--0--------|
G||-----4--------|--4------3----|(x3) |--1--------|
D||-----2--------|--4------X----| |--2--------|
A||-----2--------|--6------4----| |--2--------|
E||-----0--------|--4------2----| |--0--------|

DO INTRO AFTER CHORUS THEN VERSE

Ending

B7 A2&F# E
E||--0------|---0--------|--0--------|
B||--0------|---0--------|--0--------|
G||--8------|---2--------|--1--------|
D||--9------|---2--------|--2--------|
A||--9------|---X--------|--2--------|
E||--7------|---2--------|--0--------|

EASIER VERSION
I came up with this on my own, it is really easy since the lead singer sings so high i lowered the tune for the song (i forgot the musical term for it) from B to G if you want to play it my way but in B just put a capo on the 6th fret

tuning EADGBE
X-mute

Intro
G G&D G D D2 C C&D G Gsus G
E||--3----3----3---2---0---3----3---3----X----3--
B||--3----3----3---3---3---3----3---3----1----3--
G||--0----2----0---2---2---0----2---0----0----0--
D||--0----0----0---0---0---2----X---0----0----0--
A||--2----X----2-----------3----3---2----3----2--
E||--3----3----3--------------------3----3----3--

Verse
G D D2 C G D2 C2
E||--3---2---0---0--- E||--3--5---3---
B||--3---3---3---1--- B||--3--5---3---
G||--0---2---2---0--- OR G||--4--7---5---
D||--0---0---0---2--- D||--5--7---5---
A||--2-----------3--- A||--5--5---3---
E||--3--------------- E||--3--5---3---

Prechorus
C5 Em6(?) A&F#(?) C
E||---0------0-------0----| E||---0---
B||---0------0-------0----| B||---1---
G||---5------0-------2----| (3x) G||---0---
D||---5------0-------0----| D||---2---
A||---3------2-------0----| A||---3---
E||----------0-------2----| E||-------

DO INTRO AFTER CHORUS THEN 2nd VERSE

Ending

G F6(?) C
E||---3----1----0--
B||---3----3----1--
G||---0----2----0--
D||---0----3----2--
A||---2---------3--
E||---3------------​