Helal Olsun Gitar Akorları - Duman

#1
Sponsorlu Bağlantılar
Helal Olsun Gitar Akorları - Duman-Duman Helal Olsun gitar tabları


INTRO

E -------------------------------------------------------------------- )
B --6-5-6-8-5--------------------------------------------------------- )
G --------------5-4-5-7-4--------------------------------------------- )
D --------------------------5-5-7-9-7--------------------------------- )
A -------------------------------------8-8---------------------------- )
E -------------------------------------------------------------------- )


geceler zehir...
E ---------5-5-5-5-5-7---------9-7-5-5-4------------------------------ )
B -------------------------------------------------------------------- )
G -------------------------------------------------------------------- ) 3 kez
D -------------------------------------------------------------------- )
A -------------------------------------------------------------------- )
E -------------------------------------------------------------------- )

E ---------5-5-5-5-5-7------------------------------------------------
B --------------------------------------------------------------------
G --------------------------------------------------------------------
D --------------------------------------------------------------------
A --------------------------------------------------------------------
E --------------------------------------------------------------------

sabah olmuş...helal olsun...
E ---------8-8--7-3-8-8-7-----3-5-3-5-7-3-----8-12-8-7-7-5-3-5-7------ )
B -------------------------------------------------------------------- )
G -------------------------------------------------------------------- ) 2 kez
D -------------------------------------------------------------------- )
A -------------------------------------------------------------------- )
E -------------------------------------------------------------------- )

geceler benim...
E ---------5-5-5-5-5-7---------9-7-5-5-4-----5-5-5-5-5-7--------------
B --------------------------------------------------------------------
G --------------------------------------------------------------------
D --------------------------------------------------------------------
A --------------------------------------------------------------------
E --------------------------------------------------------------------

sabah olmuş...helal olsun...
E ---------8-8--7---8-8-7---------------7-------8-12-8-7-7---------7-- )
B ----------------8-----------8-10-8-10---8----------------10-8-10---- )
G -------------------------------------------------------------------- ) 2 kez
D -------------------------------------------------------------------- )
A -------------------------------------------------------------------- )
E -------------------------------------------------------------------- )


(Ritm aşağı-aşağı-aşağı-yukarı)

Intro= Em-bm-f#m-em

G Bm G Bm
Geceler zehir geceler kara

G Bm G Bm
Uçasım gelir kanadım yorar

(Em - Bm - F#m - Em)

G Bm G Bm
Yaralar derin seneler kadar
G Bm
Açılın geri

G Bm
Sabah olmuş gün doğmuş
F#m A
Heryerimde karlar
G Bm F#m A
Doymadım dönülmüş deliye
G Bm
Helal olsun aşkolsun
F#m A
Gözlerimde yaşlar
G Bm F#m A
Durmadım dönülmez geriye

(Em - Bm - F#m - Em)

G Bm G Bm
Geceler benim geceler bana
G Bm
Unutun beni

G Bm
Sabah olmuş gün doğmuş
F#m A
Heryerimde karlar
G Bm F#m A
Doymadım dönülmüş deliye
G Bm
Helal olsun aşkolsun
F#m A
Gözlerimde yaşlar
G Bm F#m A
Durmadım dönülmez geriye




akormerkezi