Pantera> Shattered - Gitar Akorları

Dine

Özel Üye
#1
Sponsorlu Bağlantılar
Pantera> Shattered
Shattered
Intro: bang and mute on the low E string, then:
E-|---------------------------------------------------------------------------|
B-|---------------------------------------------------------------------------|
G-|---------------------------------------------------------------------------|
D-|-5--3--5/------------------------------------------------------------------|
A-|-5--3--5/-----5--3--5/-----------------------------------------------------|
E-|-3--1--3/-----3--1--3/-----------------------------------------------------|

play E! a couple of times

Riff (and chorus rhythm):
E-|-----------------------------------|---------------------------------------|
B-|-----------------------------------|---------------------------------------|
G-|--------------12-13---13-12--------|---------------------------------------|
D-|-12-12--12-15---------------15p12--|--2-2--5-7---8-7-5/2-------------------|
A-|-----------------------------------|--2-2--5-7---8-7-5/2-------------------|
E-|-----------------------------------|--0-0--3-5---6-5-3/0-------------------|
PM-------------------| PM|--------------------|